japanlovers

ini adalah forum khusus buat anak-anak japanlovers
 
IndeksIndeks  PortalPortal  GalleryGallery  CalendarCalendar  FAQFAQ  PencarianPencarian  PendaftaranPendaftaran  AnggotaAnggota  GroupGroup  LoginLogin  

Share | 
 

 ChoRd J-MuSic yG Lo pDa mW...

Topik sebelumnya Topik selanjutnya Go down 
PengirimMessage
HaEde naKaRuii

avatar

Jumlah posting : 10
Registration date : 24.02.08

PostSubyek: ChoRd J-MuSic yG Lo pDa mW...   Thu Apr 03, 2008 8:01 pm

Ummm..brDasaRkan pRmiNtaAn paSar..*yaelah,pasar!!*

jiKa aD cHord Lgu jePang yG inGin d tNyakaN..

siLahkan poStinG d cIni..

sBxa mnGKin,pRminTaaN aKn d peNuhi..

daN unTuk diV. banD,d moHon bnTuan na..

aRigaTou minnA..
Kembali Ke Atas Go down
Lihat profil user
rajabajaklaut

avatar

Male Jumlah posting : 131
Lokasi : lautan biru
Registration date : 20.02.08

Character sheet
shinigami: DAGING!!!!!!!

PostSubyek: Re: ChoRd J-MuSic yG Lo pDa mW...   Thu Apr 03, 2008 8:55 pm

hahaha.............akhirnya ada juga nie topik

pertama gw dulu nyang ngerequest

gw mo ngerequest yang gampang dulu

yaitu lagunya gazette yang chizuru siapa yang udah ngulik?

bagi-bagi klo bisa sama liriknya


domo arigatou

_________________
Kembali Ke Atas Go down
Lihat profil user http://www.cokidisini.multiply.com
KawaiCHii

avatar

Female Jumlah posting : 55
Age : 26
Lokasi : Graveyard
Registration date : 03.03.08

Character sheet
shinigami: Worship ME!!

PostSubyek: minta MaLice Mazerr...   Thu Apr 03, 2008 9:35 pm

fren...
minta chord lengkapp malice mazer yang au revior dunkkz..
ato ga skalian bantuin ngulikk bass na.. ^^
kyahaha

sankyuuu~~
Kembali Ke Atas Go down
Lihat profil user http://kawaichii.multiply.com
Toru no kawaii

avatar

Male Jumlah posting : 110
Age : 30
Lokasi : bekashe
Registration date : 24.02.08

PostSubyek: Re: ChoRd J-MuSic yG Lo pDa mW...   Fri Apr 04, 2008 3:31 pm

baik request kalian kami tampung mohon maap klo ada kasalahan nanti nya
Kembali Ke Atas Go down
Lihat profil user
Toru no kawaii

avatar

Male Jumlah posting : 110
Age : 30
Lokasi : bekashe
Registration date : 24.02.08

PostSubyek: Re: ChoRd J-MuSic yG Lo pDa mW...   Fri Apr 04, 2008 3:48 pm

ini gw baru dapet lagu gazette yg DLN bagi yg suka tantangan ayo praktekan
Artist: Gazette
Song: Dln


This is my first tab that I've ever written.

I chose the song "Gazette - D.L.N" because It's a touching song and It's beautiful to
to.

I am writting only Aoi's part in this entry, Uruha's part will be in the next entry. Aoi
rythm guitar, Uruha is lead.

You'd have to listen to the song to hear how fast to play or how slow, but, here's the tab.

(The "^"s mean upstroke.)


|-------------------2-------------0-----------|
|----3--------------------3-----------3-------|
|-------0--------------------------------0----| x6
|----------4------------------4-------------4-|
|---------------------------------------------|
|0-------------0------------------------------|


|---------------------0--------|-----------------------0--------0----------|
|------------3-----------------|------------3-------------3--------3-------|
|---------0------------------0-|---------0-------------------0--------0----|
|------4-----------------4-----|------4----------------------------------4-|
|--3-------------3-------------|-------------------------------------------|
|------------------------------|--2-------------2-3------------------------|


|-------------------2-----------0----------|
|-----3-----------------3----------3-------|
|--------0----------------------------0----| x2
|-----------4---------------4------------4-|
|------------------------------------------|
|-0-------------0--------------------------|


|--------------------0---------|-----------------------0--------0----------|
|------------3-----------------|------------3-------------3--------3-------|
|---------0------------------0-|---------0-------------------0--------0----|
|------4-----------------4-----|------4----------------------------------4-|
|--3-------------3-------------|-------------------------------------------|
|------------------------------|--2-------------2-3------------------------|


|---------------------------|
|-----------------3---------|
|--------0----------------0-| x2
|-----4---------------4-----|
|---------------------------|
|--0----------0-------------|


|--------------------0---------|----------------------0--------0----------|
|------------3-----------------|------------3------------3--------3-------|
|---------0------------------0-|---------0------------------0--------0----|
|------4-----------------4-----|------4---------4-----------------------4-|
|--3-------------3-------------|------------------------------------------|
|------------------------------|--2----------------3----------------------|





|---------------------------|
|-----------------3---------|
|--------0----------------0-| x2
|-----4---------------4-----|
|---------------------------|
|--0----------0-------------|


|--------------------0---------|----------------------0--------0----------|
|------------3-----------------|------------3------------3--------3-------|
|---------0------------------0-|---------0------------------0--------0----|
|------4-----------------4-----|------4---------4-----------------------4-|
|--3-------------3-------------|------------------------------------------|
|------------------------------|--2----------------3----------------------|


|--0----0---0-0---0-0-0-0---0-0-|-0----0---0-0---0-0-0-0---0-0-|
|--3----3---3-3---3-3-3-3---3-3-|-3----3---3-3---3-3-3-3---3-3-|
|--0----0---0-0---0-0-0-0---0-0-|-0----0---0-0---0-0-0-0---0-0-|
|--2----2---2-2---2-2-2-2---2-2-|-4----4---4-4---4-4-4-4---4-4-|
|--3----3---3-3---3-3-3-3---3-3-|-2----2---2-2---2-2-2-2---2-2-|
|-------------------------------|------------------------------|

|-0----0---0-0---0-0-0-0---0-0-|-0----0---0-0---0-0-0-0---0-0-|
|-0----0---0-0---0-0-0-0---0-0-|-3----3---3-3---3-3-3-3---3-3-|
|-0----0---0-0---0-0-0-0---0-0-|-0----0---0-0---0-0-0-0---0-0-|
|-2----2---2-2---2-2-2-2---2-2-|-4----4---4-4---4-4-4-4---4-4-|
|-2----2---2-2---2-2-2-2---2-2-|-2----2---2-2---2-2-2-2---2-2-|
|-0----0---0-0---0-0-0-0---0-0-|------------------------------|

|-0----0---0-0---0-0-0-0---0-0-|-0----0---0-0---0-0-0-0---0-0-|
|-3----3---3-3---3-3-3-3---3-3-|-3----3---3-3---3-3-3-3---3-3-|
|-0----0---0-0---0-0-0-0---0-0-|-0----0---0-0---0-0-0-0---0-0-|
|-2----2---2-2---2-2-2-2---2-2-|-4----4---4-4---4-4-4-4---4-4-|
|-3----3---3-3---3-3-3-3---3-3-|-2----2---2-2---2-2-2-2---2-2-|
|------------------------------|------------------------------|

|-0----0---0-0---0-0-0-0---0-0-|-0-0-0-0-0-0-0-0---------|
|-0----0---0-0---0-0-0-0---0-0-|-0-0-0-0-0-0-0-0---------|
|-0----0---0-0---0-0-0-0---0-0-|-0-0-0-0-0-0-0-0---------|
|-2----2---2-2---2-2-2-2---2-2-|-2-2-2-2-2-2-2-2---------|
|-2----2---2-2---2-2-2-2---2-2-|-2-2-2-2-2-2-2-2---------|
|-0----0---0-0---0-0-0-0---0-0-|-0-0-0-0-0-0-0-0---------|

|---------------------------|
|-----------------3---------|
|--------0----------------0-| x2
|-----4---------------4-----|
|---------------------------|
|--0----------0-------------|

|--------------------0---------|----------------------0--------0----------|
|------------3-----------------|------------3------------3--------3-------|
|---------0------------------0-|---------0------------------0--------0----|
|------4-----------------4-----|------4---------4-----------------------4-|
|--3-------------3-------------|------------------------------------------|
|------------------------------|--2----------------3----------------------|

|---------------------------|
|-----------------3---------|
|--------0----------------0-| x2
|-----4---------------4-----|
|---------------------------|
|--0----------0-------------|

|--------------------0---------|----------------------0--------0-0-0-0-|
|------------3-----------------|------------3------------3-----3-3-3-3-|
|---------0------------------0-|---------0------------------0--0-0-0-0-|
|------4-----------------4-----|------4---------4--------------4-4-4-4-|
|--3-------------3-------------|---------------------------------------|
|------------------------------|--2----------------3-------------------|





|--^0-------|--^0----------0-----|--^0----------0-----|--^2------2-----|
|--^0-------|--^2------------2---|--^3------------2---|--^2--------2---|
|--^0-------|--^0--------------0-|--^0--------------0-|--^3----------3-|
|--^2-------|--^3----------------|--^2----------------|--^4------------|
|--^2-------|--^2------2---------|--^3------3---------|--^4------------|
|--^0-------|--------------------|--------------------|--^2------------|

|--0----0---0-0---0-0-0-0---0-0-|-0----0---0-0---0-0-0-0---0-0-|
|--3----3---3-3---3-3-3-3---3-3-|-3----3---3-3---3-3-3-3---3-3-|
|--0----0---0-0---0-0-0-0---0-0-|-0----0---0-0---0-0-0-0---0-0-|
|--2----2---2-2---2-2-2-2---2-2-|-4----4---4-4---4-4-4-4---4-4-|
|--3----3---3-3---3-3-3-3---3-3-|-2----2---2-2---2-2-2-2---2-2-|
|-------------------------------|------------------------------|

|-0----0---0-0---0-0-0-0---0-0-|-0----0---0-0---0-0-0-0---0-0-|
|-0----0---0-0---0-0-0-0---0-0-|-3----3---3-3---3-3-3-3---3-3-|
|-0----0---0-0---0-0-0-0---0-0-|-0----0---0-0---0-0-0-0---0-0-|
|-2----2---2-2---2-2-2-2---2-2-|-4----4---4-4---4-4-4-4---4-4-|
|-2----2---2-2---2-2-2-2---2-2-|-2----2---2-2---2-2-2-2---2-2-|
|-0----0---0-0---0-0-0-0---0-0-|------------------------------|

|--0----0---0-0---0-0-0-0---0-0-|-0----0---0-0---0-0-0-0---0-0-|
|--3----3---3-3---3-3-3-3---3-3-|-3----3---3-3---3-3-3-3---3-3-|
|--0----0---0-0---0-0-0-0---0-0-|-0----0---0-0---0-0-0-0---0-0-|
|--2----2---2-2---2-2-2-2---2-2-|-4----4---4-4---4-4-4-4---4-4-|
|--3----3---3-3---3-3-3-3---3-3-|-2----2---2-2---2-2-2-2---2-2-|
|-------------------------------|------------------------------|

|-0----0---0-0---0-0-0-0---0-0-|-0----0---0-0---0-0-0-0---0-0-|
|-0----0---0-0---0-0-0-0---0-0-|-3----3---3-3---3-3-3-3---3-3-|
|-0----0---0-0---0-0-0-0---0-0-|-0----0---0-0---0-0-0-0---0-0-|
|-2----2---2-2---2-2-2-2---2-2-|-4----4---4-4---4-4-4-4---4-4-|
|-2----2---2-2---2-2-2-2---2-2-|-2----2---2-2---2-2-2-2---2-2-|
|-0----0---0-0---0-0-0-0---0-0-|------------------------------|

|--0----0---0-0---0-0-0-0---0-0-|-0----0---0-0---0-0-0-0---0-0-|
|--3----3---3-3---3-3-3-3---3-3-|-3----3---3-3---3-3-3-3---3-3-|
|--0----0---0-0---0-0-0-0---0-0-|-0----0---0-0---0-0-0-0---0-0-|
|--2----2---2-2---2-2-2-2---2-2-|-4----4---4-4---4-4-4-4---4-4-|
|--3----3---3-3---3-3-3-3---3-3-|-2----2---2-2---2-2-2-2---2-2-|
|-------------------------------|------------------------------|

|-0----0---0-0---0-0-0-0---0-0-|-0----0---0-0---0-0-0-0---0-0-|
|-0----0---0-0---0-0-0-0---0-0-|-3----3---3-3---3-3-3-3---3-3-|
|-0----0---0-0---0-0-0-0---0-0-|-0----0---0-0---0-0-0-0---0-0-|
|-2----2---2-2---2-2-2-2---2-2-|-4----4---4-4---4-4-4-4---4-4-|
|-2----2---2-2---2-2-2-2---2-2-|-2----2---2-2---2-2-2-2---2-2-|
|-0----0---0-0---0-0-0-0---0-0-|------------------------------|

|--0----0---0-0---0-0-0-0---0-0-|-0----0---0-0---0-0-0-0---0-0-|
|--3----3---3-3---3-3-3-3---3-3-|-3----3---3-3---3-3-3-3---3-3-|
|--0----0---0-0---0-0-0-0---0-0-|-0----0---0-0---0-0-0-0---0-0-|
|--2----2---2-2---2-2-2-2---2-2-|-4----4---4-4---4-4-4-4---4-4-|
|--3----3---3-3---3-3-3-3---3-3-|-2----2---2-2---2-2-2-2---2-2-|
|-------------------------------|------------------------------|

|-0----0---0-0---0-0-0-0---0-0-|--^0-------|
|-0----0---0-0---0-0-0-0---0-0-|--^3-------|
|-0----0---0-0---0-0-0-0---0-0-|--^0-------|
|-2----2---2-2---2-2-2-2---2-2-|--^4-------|
|-2----2---2-2---2-2-2-2---2-2-|--^2-------|
|-0----0---0-0---0-0-0-0---0-0-|-----------|


Then it goes into Reita's (Bassist) solo.


|--^0-------|---0----------0-----|---0----------0-----|--^2------|
|--^0-------|---3------------3---|---3------------3---|--^2------|
|--^0-------|---0--------------0-|---0--------------0-|--^3------|
|--^2-------|---2----------------|---2----------------|--^4------|
|--^2-------|---3------3---------|---3------3---------|--^4------|
|--^0-------|--------------------|--------------------|--^2------|



|--^0-------|---0----------0-----|---0----------0-----|--^2----------2----|
|--^0-------|---3------------3---|---3------------3---|--^2--2----------2-|
|--^0-------|---0--------------0-|---0--------------0-|--^3-----3---------|
|--^2-------|---2----------------|---2----------------|--^4---------------|
|--^2-------|---3------3---------|---3------3---------|--^4---------------|
|--^0-------|--------------------|--------------------|--^2---------------|

Pause for four seconds.

|-0----0---0-0---0-0-0-0---0-0-|-0----0---0-0---0-0-0-0---0-0-|
|-3----3---3-3---3-3-3-3---3-3-|-3----3---3-3---3-3-3-3---3-3-|
|-0----0---0-0---0-0-0-0---0-0-|-0----0---0-0---0-0-0-0---0-0-|
|-2----2---2-2---2-2-2-2---2-2-|-4----4---4-4---4-4-4-4---4-4-|
|-3----3---3-3---3-3-3-3---3-3-|-2----2---2-2---2-2-2-2---2-2-|
|------------------------------|------------------------------|
x11
|-0----0---0-0---0-0-0-0---0-0-|-0----0---0-0---0-0-0-0---0-0-|
|-0----0---0-0---0-0-0-0---0-0-|-3----3---3-3---3-3-3-3---3-3-|
|-0----0---0-0---0-0-0-0---0-0-|-0----0---0-0---0-0-0-0---0-0-|
|-2----2---2-2---2-2-2-2---2-2-|-4----4---4-4---4-4-4-4---4-4-|
|-2----2---2-2---2-2-2-2---2-2-|-2----2---2-2---2-2-2-2---2-2-|
|-0----0---0-0---0-0-0-0---0-0-|------------------------------|


|-0----0---0-0---0-0-0-0---0-0-|-0----0---0-0---0-0-0-0---0-0-|
|-3----3---3-3---3-3-3-3---3-3-|-3----3---3-3---3-3-3-3---3-3-|
|-0----0---0-0---0-0-0-0---0-0-|-0----0---0-0---0-0-0-0---0-0-|
|-2----2---2-2---2-2-2-2---2-2-|-4----4---4-4---4-4-4-4---4-4-|
|-3----3---3-3---3-3-3-3---3-3-|-2----2---2-2---2-2-2-2---2-2-|
|------------------------------|------------------------------|

|--0---------------0-----0-----0-----0-----|-0----------0-|
|--0-----------3-----3-----3-----3-----3---|---3--------0-|
|--0-------------0-----------0-----------0-|------------0-|
|--2---------------------------------------|--------------|
|--2------2/4------------------------------|--------------|
|--0-------------------3-----------3-------|-----3--0-----|


Well, thats it. I hope this at least helps somewhat, I know It's hard to read sometimes.

Here's the lyrics to the song. Ta~ (All this written by Taka_Manako)
-------------------------------------------------------------------------------

(Repeated throughout the song) Song of the sheep in dark long night...

Hajime kara wakatteta dakara kanashikuwanai
Sukoshizutsu sukoshizutsu kazu wo kazoeru mitaine

Kusaki no kareru iroga boyake kisetsu no owari ga wakaranai

Ashiato wo nazoruhi wa ashiato wo kikuhi wo yondeiru wa
Nozomi mimoshinai watashi ni asu wa kaerarenai mono

Kusaki ga kareru oto wo tadori kisetsu no owari wo kanjiru
Hana ga iroduki sakihokoru koro watashi ni wa nani ga nokoru no

Tsuki ga katen wo tojiru demo taiyou ga watshi wo terasu no
Hajime kara wakatteta dakara kanashikuwanai

Megasame yoru ga owaranai kutemo sokoni kagayaku hoshi ga nakutemo
Machi wo irodoru akari tachi ga subete kietemo...
Mamorubeki hito no yorokobu kao mo aishita hito no saigo mo yuubuna hodo mitekoretakara
iino.
Kembali Ke Atas Go down
Lihat profil user
Toru no kawaii

avatar

Male Jumlah posting : 110
Age : 30
Lokasi : bekashe
Registration date : 24.02.08

PostSubyek: Re: ChoRd J-MuSic yG Lo pDa mW...   Fri Apr 04, 2008 3:50 pm

klo yg ini gazette sugar pain coba lagi slamet berpusing-pusing ria

Artist: Gazette
Song: Sugar Pain

Tuning:Drop C

Gazette official Website- http://www.pscompany.co.jp/gazette/

Intro

e|---------------------------------------------------------------------------|
B|---------------------------------------------------------------------------|
G|---------------------------------------------------------------------------|
D|-0----12--6-5-3-6-5-3-0----------------------------------------------------|
A|-0----12--6-5-3-6-5-3-0----------------------------------------------------|
E|-0----12--6-5-3-6-5-3-0----------------------------------------------------|
Repeate a few times

e|---------------------------------------------------------------------------|
B|---------------------------------------------------------------------------|
G|---------------------------------------------------------------------------|
D|-0-x--12x--6-5-3---0x-12x-6-5-3--0x-12x-6-5-3--5-6-6-6-5--3----------------|
A|-0-x--12x--6-5-3---0x-12x-6-5-3--0x-12x-6-5-3--5-6-6-6-5--3----------------|
E|-0-x--12x--6-5-3---0x-12x-6-5-3--0x-12x-6-5-3--5-6-6-6-5--3----------------|
verse
e|---------------------------------------------------------------------------|
B|---------------------------------------------------------------------------|
G|---------------------------------------------------------------------------|
D|0~-------------------------------------------------------------------------|
A|0~-------------------------------------------------------------------------|
E|0~-------------------------------------------------------------------------|
(can't figure out some chorus/verse bits, sorry)
Chorus
e|-------------------------|
B|-------------------------|
G|-------------------------|
D|0x--0-0x--0x--0x---0-0x--|
A|0x--0-0x--0x--0x---0-0x--|
E|0x--0-0x--0x--0x---0-0x--|
Chorus part two
e|-----------------------------|
B|-----------------------------|
G|-----------------------------|
D|-0-0--88-8-8---3--3---7-7-7--|
A|-0-0--88-8-8---3--3---7-7-7--|
E|-0-0--88-8-8---3--3---7-7-7--|
(after taht a few times there's another part)
Tremelo pick
e|---------------------------------------------------------------------------|
B|---------------------------------------------------------------------------|
G|---------------------------------------------------------------------------|
D|--------------------------------777777777777777788888888777777777778888----|
A|----5555555554444444444666666666555555554444444466666666555555444446666-etc|
E|---------------------------------------------------------------------------|
Kembali Ke Atas Go down
Lihat profil user
Toru no kawaii

avatar

Male Jumlah posting : 110
Age : 30
Lokasi : bekashe
Registration date : 24.02.08

PostSubyek: Re: ChoRd J-MuSic yG Lo pDa mW...   Fri Apr 04, 2008 3:56 pm

buat lo kawaichi nih gw kasih tab lagu malice mizer yg au revior

Artist: Malice Mizer
Song: Au Revoir


Malice Mizer - Au Revoir
Merveilles
Bassist - Yu~ki
Tabbed by: myspace.com/jenovaisback

Standard Tuning

some weird rhythms here and i havnt shown them perfectly.
piano intro in 6/8 then drum intro in 4/4

G|---------7---|-------6---|-------6-|-4--7--4---|
D|-----------5-|-7-------7-|-4-------|---------4-|
A|----5--------|----4------|----4----|-----------|
E|-3----3------|-----------|---------|-----------|

G|-----------|-6----6-|-7-------|-8-------8-|
D|----5--9-5-|--------|----9----|----7------|
A|-7---------|----4---|-------9-|-------9---|
E|-----------|--------|---------|-----------|

G|---------7---|-----------|-------6-|-4--7--4---|
D|-----------5-|-7-------5-|-4-------|---------4-|
A|----5--------|----0--4---|----4----|-----------|
E|-3----3------|-----------|---------|-----------|

G|-----------|-6----6-|-7-------|-8---------|
D|----5--9-5-|--------|----9----|----7------|
A|-7---------|----4---|-------9-|-------9---|
E|-----------|--------|---------|-----------|

G|---------|---------|---------|---------|
D|---------|---------|---------|---------|
A|-7-7-----|-0-0-----|-5-5-----|-2-2-----|
E|---------|---------|---------|---------|

G|---------|---------|---------|---------|
D|---------|---------|-------6/|-9-------|
A|-7-7-----|-0-0-----|-5-5-----|---9-6---|
E|---------|---------|---------|---------|

G|---------|---------|---------|---------|
D|---------|---------|---------|---------|
A|-7---7---|-0-------|-5---5---|-2-------|
E|---7-----|---0-----|---5-----|---2-----|

G|---------|---------|---------7---|-------11-11-|
D|---------|---------|-------7---7-|-9---9-------|
A|-7---7---|-0-------|-5---5-------|---9---------|
E|---7-----|---0-----|---5---------|-------------|


G|---------7---|-----------|-------6-|-4--7--4---|
D|-----------5-|-7-------5-|-4-------|---------4-|
A|----5--------|----0--4---|----4----|-----------|
E|-3----3------|-----------|---------|-----------|

G|-----------|-6----6-|-7-------|-8-------8-|
D|----5--9-5-|--------|----9----|----7------|
A|-7---------|----4---|-------9-|-------9---|
E|-----------|--------|---------|-----------|




G|---------|---------|---------|---------|
D|---------|---------|---------|---------|
A|-7-7-----|-0-0-----|-5-5-----|-2-2-----|
E|---------|---------|---------|---------|

G|---------|---------|---------|---------|
D|---------|---------|-------6/|-9-------|
A|-7-7-----|-0-0-----|-5-5-----|---9-6---|
E|---------|---------|---------|---------|

G|---------|---------|---------|---------|
D|---------|---------|---------|---------|
A|-7---7---|-0-------|-5---5---|-2-------|
E|---7-----|---0-----|---5-----|---2-----|

G|---------|---------|
D|---------|-----4---|
A|-7---7---|---4-----|
E|---7-----|-2-------|

G|------7---|---------|----------|------7-6-----|
D|----------|---------|------7---|----------7-4-|
A|----------|-7-7-----|----------|-5-5----------|
E|-7-7----7-|---------|-5-5----5-|--------------|

G|----------|------------|-------|--------|
D|--------5-|-3----------|-4-----|------8-|
A|-------5--|------4---4-|-------|---4----|
E|-3-3--3---|---4----4---|---2---|-2------|

G|------7---|---------|----------|------7-6-----|
D|----------|---------|------7---|----------7-4-|
A|----------|-7-7-----|----------|-5-5----------|
E|-7-7----7-|---------|-5-5----5-|--------------|

G|----------|------------|-------|--------|
D|--------5-|-3----------|-4-----|-----4--|
A|-------5--|------4---4-|-------|---4----|
E|-3-3--3---|---4----4---|---2---|-2------|

G|----------|----------|----------|----------|
D|-2-2-22---|-------2--|----------|-----0-4--|
A|-------2--|-0-0-04-4-|-5-5-55-4-|-2-2--2-2-|
E|--------3-|----------|-------5--|----------|

G|----------|----------|----------|------6---|
D|----------|--------4-|----------|-----4-4--|
A|-------2--|-------4--|-4-4-44---|---4------|
E|-0-0-00-3-|-2-2-22---|-------14-|-2--------|

G|----------|----------|----------|----------|
D|-2-2-22---|-------2--|----------|-----0-4--|
A|-------2--|-0-0-04-4-|-5-5-55-4-|-2-2--2-2-|
E|--------3-|----------|-------5--|----------|

G|----------|----------|----------|------|
D|----------|----------|--------2-|-4----|
A|-------2--|-------4--|-------2--|------|
E|-0-0-00-3-|-2-2-22-2-|-0-0-00---|------|

G|------7---|-----------|-------6-|-4--7--4---|
D|----5---5-|-7-------5-|-4-------|---------4-|
A|----------|----0--4---|----4----|-----------|
E|-3--------|-----------|---------|-----------|

G|-----------|-6----6-|-7-------|-8------8-|
D|----5--9-5-|--------|----9----|----7-----|
A|-7---------|----4---|-------9-|------9---|
E|-----------|--------|---------|----------|

G|------7---|------6----|-------6-|-4--7--4---|
D|----5---5-|-7---------|-4-------|---------4-|
A|----------|----4--0---|----4----|-----------|
E|-3--------|-----------|---------|-----------|


G|-----------|-6----6-|
D|----5--9-5-|--------|
A|-7---------|----4---|
E|-----------|--------|


G|------7---|--------9-|----------|------7-6-----|
D|----------|----------|------7---|----------7-4-|
A|----------|-7-7---7--|----------|-5-5----------|
E|-7-7----7-|------7---|-5-5----5-|--------------|

G|----------|------------|-------|--------|
D|--------5-|-3----------|-4-----|------8-|
A|-------5--|------4---4-|-------|---4----|
E|-3-3--3---|---4----4---|---2---|-2------|

G|------7---|---------|----------|------7-6-----|
D|----------|---------|------7---|----------7-4-|
A|----------|-7-7-----|----------|-5-5----------|
E|-7-7----7-|---------|-5-5----5-|--------------|

G|----------|------------|-------|--------|
D|--------5-|-3----------|-4-----|-----4--|
A|-------5--|------4---4-|-------|---4----|
E|-3-3--3---|---4----4---|---2---|-2------|

G|----------|----------|----------|----------|
D|-2-2-22---|-------2--|----------|-----0-4--|
A|-------2--|-0-0-04-4-|-5-5-55-4-|-2-2--2-2-|
E|--------3-|----------|-------5--|----------|

G|----------|----------|----------|------6---|
D|----------|--------4-|----------|-----4-4--|
A|-------2--|-------4--|-4-4-44---|---4------|
E|-0-0-00-3-|-2-2-22---|-------14-|-2--------|

G|----------|----------|----------|----------|
D|-2-2-22---|-------2--|----------|-----0-4--|
A|-------2--|-0-0-04-0-|-5-5-55-4-|-2-2--2-2-|
E|--------3-|----------|-------5--|----------|

G|---------|----------|----------|----------|
D|-2-2-----|--------4-|-2-2----2-|-4-4----4-|
A|------2--|------4---|------2---|------4---|
E|-------3-|-2-2------|----------|----------|

G|---------|----|
D|-2-2-----|-4--|
A|------2--|----|
E|---------|----|

G|------7---|-----------|-------6-|-4--7--4---|
D|----5---5-|-7-------7-|-4-------|---------4-|
A|----------|----0--4---|----4----|-----------|
E|-3--------|-----------|---------|-----------|

G|-----------|-6----6-|-7-------|--------|
D|----5--9-5-|--------|----9----|--------|
A|-7---------|----4---|-------9-|-6--9---|
E|-----------|--------|---------|------7-|

G|--------|--------|-------6-|-4--7--4---|
D|-5---5--|-7---7--|-4-------|---------4-|
A|--------|--------|----4----|-----------|
E|---3----|---5----|---------|-----------|

G|------4---|-6----6-|-7-------|--------|
D|----5---5-|--------|----9----|--------|
A|----------|----4---|-------9-|-6--9---|
E|-0--------|--------|---------|------7-|

G|--------|--------|-------6-|-4--7--4---|
D|-5---5--|-7---7--|-4-------|---------4-|
A|--------|--------|----4----|-----------|
E|---3----|---5----|---------|-----------|

G|------4---|-6----6-|-7-------|-8------8-|
D|----5---5-|--------|----9----|----7-----|
A|----------|----4---|-------9-|------9---|
E|-0--------|--------|---------|----------|

G|--------|--------|-------6-|-4--7--4---|
D|-5---5--|-7---7--|-4-------|---------4-|
A|--------|--------|----4----|-----------|
E|---3----|---5----|---------|-----------|

G|------4---|-6----6-|-7-------|-8------8-|
D|----5---5-|--------|----9----|----7--7--|
A|----------|----4---|-------9-|------9---|
E|-0--------|--------|---------|----------|

G|--------|--------|-------6-|-4--7--4---|
D|-5---5--|-7---7--|-4-------|---------4-|
A|--------|--------|----4----|-----------|
E|---3----|---5----|---------|-----------|

G|------4---|-6----6-|-7-------|-8------8-|
D|----5---5-|--------|----9----|----7--7--|
A|----------|----4---|-------9-|------9---|
E|-0--------|--------|---------|----------|

repeat to fade....
Kembali Ke Atas Go down
Lihat profil user
rajabajaklaut

avatar

Male Jumlah posting : 131
Lokasi : lautan biru
Registration date : 20.02.08

Character sheet
shinigami: DAGING!!!!!!!

PostSubyek: Re: ChoRd J-MuSic yG Lo pDa mW...   Fri Apr 04, 2008 6:31 pm

wew........toru-san

gw kagra bisa baca not balok nie hahahaha........

bisa ditulis chord biasanya ga

biar gampang dibaca gitu

_________________
Kembali Ke Atas Go down
Lihat profil user http://www.cokidisini.multiply.com
anime

avatar

Female Jumlah posting : 71
Age : 23
Lokasi : pasti twu . !
Registration date : 24.02.08

Character sheet
shinigami: anime bgd lah,pzti'y naruto

PostSubyek: Re: ChoRd J-MuSic yG Lo pDa mW...   Sat Apr 05, 2008 12:02 pm

beuh....


gg ngrti dech guw . !
Kembali Ke Atas Go down
Lihat profil user
Uruha kawaii!!

avatar

Male Jumlah posting : 51
Age : 29
Lokasi : Lost heaven
Registration date : 17.03.08

Character sheet
shinigami: uruha

PostSubyek: Re: ChoRd J-MuSic yG Lo pDa mW...   Thu Apr 10, 2008 11:18 am

Coky,,, itu kan namanya tablature, bukan not balok,,


kalo garis yang atas itu senar1
yang ke 2 senar 2
begitu seterusnya..

kalo nomer2nya itu, letak fret yang di tekan,,

Contoh:
kalo di garis ke 4 ada angka 2. berarti senar 4 kolom 2.

ngerti ga???
Kembali Ke Atas Go down
Lihat profil user
KawaiCHii

avatar

Female Jumlah posting : 55
Age : 26
Lokasi : Graveyard
Registration date : 03.03.08

Character sheet
shinigami: Worship ME!!

PostSubyek: nYuuu~~   Thu Apr 10, 2008 3:28 pm

Toru no kawaii wrote:
buat lo kawaichi nih gw kasih tab lagu malice mizer yg au revior

Artist: Malice Mizer
Song: Au Revoir


Malice Mizer - Au Revoir
Merveilles
Bassist - Yu~ki
Tabbed by: myspace.com/jenovaisback

Standard Tuning


domo arigatooo...
tapiii koq kliatann na susah iaghh???

mmhh..


kira2 ada GP na ga yahh??
ssh ngulik klo ga ada GP na..
hikkkssss. . .
Kembali Ke Atas Go down
Lihat profil user http://kawaichii.multiply.com
Uruha kawaii!!

avatar

Male Jumlah posting : 51
Age : 29
Lokasi : Lost heaven
Registration date : 17.03.08

Character sheet
shinigami: uruha

PostSubyek: Re: ChoRd J-MuSic yG Lo pDa mW...   Tue Apr 22, 2008 5:13 pm

Minta Calm Envy nya GazettE Dooonk,,,,


sama After Dark nya Ajikan,,,,

pliss,,pliss,,pliss,,,
Kembali Ke Atas Go down
Lihat profil user
Kai ukeyutaka

avatar

Female Jumlah posting : 40
Age : 26
Lokasi : Gak jelas,,Cimanggis x
Registration date : 09.03.08

PostSubyek: Re: ChoRd J-MuSic yG Lo pDa mW...   Thu Apr 24, 2008 4:35 pm

Minta Cassis dong,,,tp jgn Tab nya ,,Chord biasa aj
Oia klo ada umibe nya laruku
hehehe
Kembali Ke Atas Go down
Lihat profil user
Uruha kawaii!!

avatar

Male Jumlah posting : 51
Age : 29
Lokasi : Lost heaven
Registration date : 17.03.08

Character sheet
shinigami: uruha

PostSubyek: Re: ChoRd J-MuSic yG Lo pDa mW...   Sat Apr 26, 2008 9:11 am

Sini CASSIS gw ajarin.
gw bisa,,,

tapi yang melody uruha nya pas "YOrusou kotode,,," dst, gw belom bisa..

kalo melody yang uruha solo sama fade out nya Aoi gw udah bisa,,
Kembali Ke Atas Go down
Lihat profil user
Kai ukeyutaka

avatar

Female Jumlah posting : 40
Age : 26
Lokasi : Gak jelas,,Cimanggis x
Registration date : 09.03.08

PostSubyek: Re: ChoRd J-MuSic yG Lo pDa mW...   Mon Apr 28, 2008 1:59 pm

Gmn cara ngajarinnya????
lw ada dmn gwnya ad dmn??
Ayo uruha Nyalakan Telepati nya
Kembali Ke Atas Go down
Lihat profil user
orochimaru

avatar

Jumlah posting : 118
Lokasi : otogakure
Registration date : 24.02.08

PostSubyek: Re: ChoRd J-MuSic yG Lo pDa mW...   Sat May 03, 2008 4:43 pm

Seventh Heaven Chords by Larc En Ciel

Intro: [F# E B] x3

F# E B
Ware ni tsuzuke saa ikou karadajuu no kara wo yaburi
F# E B
Sarakedasu Ai wo tsunagou dakishimeai tashikameai
F# E B
Yurameku rakuen made shissoku shinai Maccha kurenai
F# E B
Tsukami totte yarusa tabun stairs to the seventh
D A
Running up to heaven, Yeah!

A D A D
Kirameita ruri-iro ga mune ni sasari omoishirasareru [We can't let it end]
A D A
Egaite ita miraizu ni kimi ga ukabu
D
Eien ga musubareru My baby, don't think it's hard.

E E D C# D

E E D C# D
Kimi ni saishuuteki na question.
E E D C# D
Doko ni sonzai suruka heaven?
Hinto wa nai The answer in a minute thirty one.

[F# E B] x2

F# E B
Kono shunkan ni mo shinkou mawari mawari iro wa kawari
F# E B
yuuwaku ni obore shizumi doudou meguri chiri mo tsumori
F# E B
Daremo kare mo saa kina itsumo iruyo kangei shiyou
F# E B
sono te de omouzonbun Stairs to the seventh.
D A
Running up to heaven, Yeah!

A D A D
Kirameita ruri-iro ga mune ni sasari omoishirasareru [We can't let it end]
A D A
Egaite ita miraizu ni kimi ga ukabu
D
Eien ga musubareru My baby, don't think it's hard.

E E D C# D

E E D C# D
Kimi ni saishuuteki na question.
E E D C# D
Doko ni sonzai suruka heaven?

Mayoi wa nai The answer's waiting under your feet.
[Under your feet. Under your feet. Under your feet.]

F# E B E*
Afuredasu nomitsukusu kairaku to taihi suru shoujou
E B D
Tenkanshi, kono daichi he to kizuki yukou

F# E B
Ware ni tsuzuke saa ikou karadajuu no kara wo yaburi
F# E B
Sarakedasu Ai wo tsunagou dakishimeai tashikameai
F# E B
Yurameku rakuen made shissoku shinai Maccha kurenai
F# E B
Tsukami totte yarusa tabun stairs to the seventh

Running up to heaven, Yeah!
Kembali Ke Atas Go down
Lihat profil user
Uruha kawaii!!

avatar

Male Jumlah posting : 51
Age : 29
Lokasi : Lost heaven
Registration date : 17.03.08

Character sheet
shinigami: uruha

PostSubyek: Re: ChoRd J-MuSic yG Lo pDa mW...   Mon May 05, 2008 11:24 am

bagi doonk,, mana nih CALM ENVY sama

AFTER DARK nya ASIAN KUNG FU GENERATION??

gw lagi blom bisa ngulik,, lagi mu knaekan grade kursus gw,,
hiks,,hiks,,,
Kembali Ke Atas Go down
Lihat profil user
orochimaru

avatar

Jumlah posting : 118
Lokasi : otogakure
Registration date : 24.02.08

PostSubyek: Re: ChoRd J-MuSic yG Lo pDa mW...   Mon May 05, 2008 6:20 pm

ck ck ck.... gitu aja tak bisaaa..... sini belajar ama orosama..... hahahahahaa:cc3:


nih gw kasih


AFTER DARK .... INDONESIAN SILAT GENERATION



Intro 1st half:

Rythm

e|-------------------------------------------|
B|---------------8-8--------9-9--------------|
G|-----6-6-------6-6--------6-6-------5-5----|
D|-----6-6-------6-6--------6-6-------6-6----| x4
A|-------------------------------------------|
E|-------------------------------------------|

Lead

e|------------------------------------|
B|------------------------------------|
G|----/6\1-1-1-1/3\1-1-1-1------------|
D|------------------------------------| x2
A|------------------------------------|
E|------------------------------------|


Intro 2nd half:

Rythm

e|------------------------------------|
B|------------------------------------|
G|------6-6-6-\--1-1-1--/-3-3-3-------|
D|------8-8-8-\--3-3-3--/-5-5-5-------| x2
A|------8-8-8-\--3-3-3--/-5-5-5-------|
E|------------------------------------|

Lead

e|------------------------------------|
B|------------------------------------|
G|-10--\--8---\----3----/--5----------|
D|-x---\--x---\----x----/--x----------| x2
A|-8---\--6---\----1----/--3----------|
E|------------------------------------|

____________________________________
Pre-Verse:

Rythym

e|----------------------------|
B|----------------------------|
G|----------------------------|
D|----6-----6-6---6-6---------| x2
A|----6-----6-6---6-6---------|
E|----4-----4-4---4-4---------|

Lead

e|----------------------------|
B|----------------------------|
G|---/6\1-1-1-1/3\1-1-1-1-----|
D|----------------------------| x2
A|----------------------------|
E|----------------------------|
__________________________________________
Verse:

Rythym

e|----------------------------|
B|----------------------------|
G|----------------------------|
D|----6-----6-6---6-6---------| x2
A|----6-----6-6---6-6---------|
E|----4-----4-4---4-4---------|

Lead

e|----------------------------|
B|----------------------------|
G|---/6\1-1-1-1/3\1-1-1-1-----|
D|----------------------------| x2
A|----------------------------|
E|----------------------------|


Verse 2nd Part:

Rythm

e|------------------------------------|
B|------------------------------------|
G|------6-6-6-\--1-1-1--/-3-3-3-------|
D|------8-8-8-\--3-3-3--/-5-5-5-------| x2
A|------8-8-8-\--3-3-3--/-5-5-5-------|
E|------------------------------------|

Lead

e|------------------------------|-------------------------|
B|------------------------------|-------------------------|
G|-10--\--8---\----3----/--5----|10--\--8---\----3----/--5|
D|------------------------------|x---\--x---\----x----/--x|
A|------------------------------|8---\--6---\----1----/--3|
E|------------------------------|-------------------------|

__________________________________________
Pre-Chorus

Rythym

e|------------------------------------|
B|------------------------------------|
G|------------------------------------|
D|-6-6----6-6----6-6----6-6---6-6-----| x2
A|-4-4----4-4----4-4----4-4---4-4-----|
E|------------------------------------|

Lead

e|------------------------------------|
B|------------------------------------|
G|-----6------6------6-----6------6---|
D|------------------------------------| x2
A|-4-4----4-4----4-4----4-4---4-4-----|
E|------------------------------------|


Pre-Chorus 2nd Part:

Rythym

e|-------------------------------------------------------------|
B|-------------------------------------------------------------|
G|-------------------------------------10-10-10-10-10-/--12-12-|
D|-8-8---8-8----8-8----8-8----8-8---/--10-10-10-10-10-/--12-12-|
A|-6-6---6-6----6-6----6-6----6-6---/--8--8--8--8--8--/--10-10-|
E|-------------------------------------------------------------|

Lead

e|-------------------------------------------------------------|
B|-------------------------------------------------------------|
G|----8------8------8(+)---8------8-/--10-10-10-10-10-/--12-12-|
D|-------------------------------------x--x--x--x--x--/--x--x--|
A|-6-6---6-6----6-6----6-6----6-6---/--8--8--8--8--8--/--10-10-|
E|-------------------------------------------------------------|

________________________________________
Chorus

Rythym

e|----------------------------------------------------------------|
B|----------------------------------------------------------------|
G|----------------------------------------------------------------|
D|-8--8-8-8-8-8----8---8-8-8-8-8----6--6-6-6-6-6----3--3-3-3-3-3--|
A|-8--8-8-8-8-8----6---6-6-6-6-6----6--6-6-6-6-6----3--3-3-3-3-3--|
E|-6--6-6-6-6-6----6---6-6-6-6-6----4--4-4-4-4-4----1--1-1-1-1-1--|

Lead
x2
e|--------------------------|----------------------------------|
B|--------------------------|----------------------------------|
G|-/8-8-8-8-8-8-------------|----------------------------------|
D|--------------10--8/------|--5-6--8--6------5-6--8--10-------|
A|--------------------------|----------------------------------|
E|--------------------------|----------------------------------|


Chorus 2nd Part:

Rythym

e|-------------------------------------------------------------|
B|-------------------------------------------------------------|
G|-3--3-3-3-3-3---5--5-5-5-5-5---6--6-6-6-6-6------------------|
D|-3--3-3-3-3-3---5--5-5-5-5-5---6--6-6-6-6-6---8--8-8-8-8-8---|
A|-1--1-1-1-1-1---3--3-3-3-3-3---4--4-4-4-4-4---6--6-6-6-6-6---|
E|----------------------------------------------6--6-6-6-6-6---|

Lead
x2
e|--------------------------|----------------------------|
B|--------------------------|----------------------------|
G|-/8-8-8-8-8-8-------------|----------------------------|
D|--------------10--8/------|--5-6--8--6-----3-5--8--6---|
A|--------------------------|----------------------------|
E|--------------------------|----------------------------|

_____________________________________________
2nd Verse:

Rythym

e|----------------------------|
B|----------------------------|
G|----------------------------|
D|----6----6----6----6--------|
A|----6----6----6----6--------|
E|----4----4----4----4--------|

Lead

e|--------x-x-x-----x-x-x-----|-------9-8-6------|
B|--------x-x-x-----x-x-x-----|--6-8---------9---|
G|---/6\1-x-x-x/3\1-x-x-x-----|------------------|
D|--------x-x-x-----x-x-x-----|------------------|
A|----------------------------|------------------|
E|----------------------------|------------------|


2nd Verse/ 2nd part:

Rythym

e|------------------------------------|
B|------------------------------------|
G|------6-6-6-\--1-1-1--/-3-3-3-------|
D|------8-8-8-\--3-3-3--/-5-5-5-------|
A|------8-8-8-\--3-3-3--/-5-5-5-------|
E|------------------------------------|

Lead

e|-------------------------|
B|-------------------------|
G|10--\--8---\----3----/--5|
D|x---\--x---\----x----/--x|
A|8---\--6---\----1----/--3|
E|-------------------------|

____________________________________________
Break:

Rythym (With Flanger)

e|-xxx-x-xxxxx-x---|
B|-xxx-x-xxxxx-x---|
G|-xxx-x-xxxxx-x---|
D|-xxx-x-xxxxx-x---|
A|-----------------|
E|-----------------|

Lead

e|-----------|------------------------|---------------------------------|
B|-----------|------------------------|---------------------------------|
G|-10-x-10-x-|10-10-10-/-12-12-12-\-10|-10-10/-12-12/-13-13\-12-\-10-10-|
D|-x--x-x--x-|x--x--x--/-x--x--x--\-x-|-x--x-/-x--x-/-x--x-\-x--\-x--x--|
A|-8--x-8--x-|8--8--8--/-10-10-10-\-8-|-8--8-/-10-10/-11-11\-10-\-8--8--|
E|----------------------------------------------------------------------|

e|-----------------------------------|
B|-----------------------------------|
G|--10-10--\--8-8--\--6-6--\--5-5----|
D|--x--x---\--x-x--\--x-x--\--x-x----|
A|--8--8---\--6-6--\--4-4--\--3-3----|
E|-----------------------------------|

____________________________________________
Outro:

Rythm

e|-------------------------------------------|
B|---------------8-8--------9-9--------------|
G|-----6-6-------6-6--------6-6-------5-5----|
D|-----6-6-------6-6--------6-6-------6-6----| x3
A|-------------------------------------------|
E|-------------------------------------------|

Lead

e|------------------------------------|
B|------------------------------------|
G|----/6\1-1-1-1/3\1-1-1-1------------|
D|------------------------------------| x3
A|------------------------------------|
E|------------------------------------|

Both:

e|-------------------------------------------|
B|---------------8-8--------9-9-------9-9----|
G|-----6-6-------6-6--------6-6-------6-6----|
D|-----6-6-------6-6--------6-6-------6-6----|
A|-------------------------------------------|
E|-------------------------------------------|
Kembali Ke Atas Go down
Lihat profil user
Jack Spooky

avatar

Male Jumlah posting : 39
Age : 27
Lokasi : Jakhartaaaaa,,,,, timur,,,,,
Registration date : 05.03.08

Character sheet
shinigami:

PostSubyek: Re: ChoRd J-MuSic yG Lo pDa mW...   Wed May 14, 2008 2:44 pm

minta chordnya GLay yg Zutto Futari De donkz,,,

gila tuh Lagu,,,

sedih,,,

w punya kisah sm tuh Lagu,,,

pLiz,,, mnta chordnya yee,,,

Lirik doankz c dah punya w,,,
Kembali Ke Atas Go down
Lihat profil user
togatta

avatar

Male Jumlah posting : 16
Age : 27
Lokasi : karawang
Registration date : 09.07.08

PostSubyek: hajimemashite   Wed Jul 09, 2008 11:04 pm

ada yang bisa melodynya kurenai x japan?????????/

gw pusing banget tuch nguliknya+ga kuat maeninnya


ada yang mau ngasih tau????

ama liriknya kao bisa
Kembali Ke Atas Go down
Lihat profil user
hikari

avatar

Jumlah posting : 20
Registration date : 10.10.08

PostSubyek: Re: ChoRd J-MuSic yG Lo pDa mW...   Sat Oct 11, 2008 8:38 pm

request...........request

request lagunya revenant choir versailles donk

Kembali Ke Atas Go down
Lihat profil user
jldluffy

avatar

Male Jumlah posting : 11
Age : 25
Lokasi : bhekhasi
Registration date : 17.09.08

Character sheet
shinigami:

PostSubyek: Re: ChoRd J-MuSic yG Lo pDa mW...   Mon Oct 20, 2008 5:54 pm


klo chord'a l'arc~en~ciel tuch dimana ia
alamat web'a
fufuufufu... baru siiii

truz klo mo download lagu2 band visual kei
kaya l'arc~en~ciel
n gazette atoooo asian kung-fu generation
tuch jugaaaa di mana ia


^_^

saia dari ninja kabut
siap menyerang desa konohagakure
dengan jutsu kekkai(bisa pa ga ia???)
Kembali Ke Atas Go down
Lihat profil user
orochimaru

avatar

Jumlah posting : 118
Lokasi : otogakure
Registration date : 24.02.08

PostSubyek: Re: ChoRd J-MuSic yG Lo pDa mW...   Mon Oct 20, 2008 10:44 pm

woi baka kauu...... klo maslah download lagu dah ada pada thread sebelummnyaa masih di thread j musick juga.... cuba cari deh... byk kok sitenyaa.... ahhh
Kembali Ke Atas Go down
Lihat profil user
Jyu

avatar

Male Jumlah posting : 6
Age : 28
Lokasi : Heroes City
Registration date : 26.07.09

PostSubyek: Re: ChoRd J-MuSic yG Lo pDa mW...   Sun Jul 26, 2009 8:38 pm

vamps dunk yang evanescent..

ada ga ya web yang khusus kasi tau chord2 lagu2 j-rock gt ?
Kembali Ke Atas Go down
Lihat profil user http://www.facebook.com/jyuuuu
Bu-bu

avatar

Female Jumlah posting : 2
Age : 28
Lokasi : Pondok Pinang
Registration date : 23.08.09

Character sheet
shinigami:

PostSubyek: Re: ChoRd J-MuSic yG Lo pDa mW...   Sun Aug 23, 2009 2:05 pm

Dear all...
Saya anak baru disini salam knal...
Please..klu ada yang punya partitur biola lagunya Malice Mizer - Au Revoir minta dunks..
Soalnya gw dh cari ga ketemu
Free ya..hehehe

Thx bgt semuanya..
Kembali Ke Atas Go down
Lihat profil user
Sponsored content




PostSubyek: Re: ChoRd J-MuSic yG Lo pDa mW...   

Kembali Ke Atas Go down
 
ChoRd J-MuSic yG Lo pDa mW...
Topik sebelumnya Topik selanjutnya Kembali Ke Atas 
Halaman 1 dari 1
 Similar topics
-
» -= DJ Music Mixer 4.5 + Serial=-

Permissions in this forum:Anda tidak dapat menjawab topik
japanlovers :: jmusic forum-
Navigasi: